Add To:

Songbook
|
Set List
Create New

Create
Glo
My Glorious
Delirious
Glo

Preview (partial song; no chords displayed)

#----------------------------------PLEASE NOTE--------------------------------#
#This file is the author's own work and represents their interpretation of the#
#song. You may only use this file for private study, scholarship, or research.#
#-----------------------------------------------------------------------------#
#-- File created with Instab - http://www.pconline.com/~smcarey/instab.html --#
#-----------------------------------------------------------------------------#
Author/Artist: delirious
Title: my glorious
Album: glo
Transcribed by: jamie nicol
Email: jgnicol@hotmail.com
All major riffs and chord progressions have been transcribed.
The chord progresion behind the guitar solo is the same as the chorus.
There also is a little hammer on thing (E to F#, da dah da da) that
Jon does in the drum and singing section before the end of the song.
If there are any mistakes or parts that are confusing to you feel free to
email me.
---------------------|---------------------|---------------------|------------
---------------------|---------------------|---------------------|------------
---------------------|---------------------|---------------------|------------
-------------2-------|-------------2-------|------------7\-------|------------
---------2h4---4-2---|---------2h4---4-2---|--------7h9----------|------------
-0h2-2-2-----------5-|-0h2-2-2-----------5-|-/10-10--------------|-7-7-5-7-7--

-------------|----------------------------------------------------------------
-------------|----------------------------------------------------------------
-------------|----------------------------------------------------------------
-------------|----------------------------------------------------------------
-------------|----------------------------------------------------------------
-7-7-5-5-5-5-|----------------------------------------------------------------
------------------|-----------------------|--------------|-----------|--------
------------------|-----------------------|--------------|-----------|--------
------------------|-----------------------|--------------|-----------|--------
------------------|-----------------------|--------------|-----------|--------
------------------|-----------------------|-4-5-5-4h5----|-0-2-2-0h2-|--------
-0-2-2-0h2--------|---------0-2-2-0h2-----|--------------|-----------|--------
The world's shaking with the love of god
------------------|-----------------------|--------------|-----------|--------
------------------|-----------------------|--------------|-----------|--------
------------------|-----------------------|--------------|-----------|--------
------------------|-----------------------|--------------|-----------|--------
------------------|-----------------------|-4-5-5-4h5----|-0-2-2-0h2-|--------
-0-2-2-0h2--------|---------0-2-2-0h2-----|--------------|-----------|--------
Great and glorious, let the whole earth sing
--------------------|------------------------|-----------|--------------------
--------------------|------------------------|-----------|--------------------
--------------------|------------------------|-----------|--------------------
--------------------|------------------------|-----------|--------------------
------5---------5-5-|-----4--------------4-4-|---2---2-2-|--2---2-2-----------
--------------------|------------------------|-----------|--------------------
And all you ever do is change the old for new people we beleive that,
-----------------|-----------------|-----------------|-----------------|------
-----------------|-----------------|-----------------|-----------------|------
-----------------|-----------------|-----------------|-----------------|------
-----------------|-----------------|-----------------|-----------------|------
-0-0-0-0-0-0-0-0-|-----------------|-----------------|-----------------|------
-----------------|-4-4-4-4-4-4-4-4-|-2-2-2-2-2-2-2-2-|-0-0-0-0-0-0-0-0-|------
God is bigger than the air I breathe the world we'll leave
-----------------|-----------------|-----------------|-----------------|------
-----------------|-----------------|-----------------|-----------------|------
-----------------|-----------------|-----------------|-----------------|------
-----------------|-----------------|-----------------|-----------------|------
-0-0-0-0-0-0-0-0-|-----------------|-----------------|-----------------|------
-----------------|-4-4-4-4-4-4-4-4-|-2-2-2-2-2-2-2-2-|-0-0-0-0-0-0-0-0-|------
God will save the day and all will say my glorious!
---------|---------|----------------------------------------------------------
---------|---------|----------------------------------------------------------
---------|---------|----------------------------------------------------------
---------|---------|----------------------------------------------------------
-2-2-2-2-|-4-4-4-4-|----------------------------------------------------------
---------|---------|----------------------------------------------------------
-----------------|-----------------|-----------------|-----------------|------
-----------------|-----------------|-----------------|-----------------|------
-----------------|-----------------|-----------------|-----------------|------
-----------------|-----------------|-4-4-4-4-4-4-4-4-|-----------------|------
-5-5-5-5-5-5-5-5-|-7-7-7-7-7-7-7-7-|-----------------|-7-7-7-7-7-7-7-7-|------
-----------------|-----------------|-----------------|-----------------|------
My glorious build-up before the guitar solo.
-----------------|-----------------|-----------------|-----------------|------
-----------------|-----------------|-----------------|-----------------|------
-----------------|-----------------|-----------------|-----------------|------
-----------------|-----------------|-4-4-4-4-4-4-4-4-|-6-6-6-6-6-6-6-6-|------
-5-5-5-5-5-5-5-5-|-7-7-7-7-7-7-7-7-|-----------------|-----------------|------
-----------------|-----------------|-----------------|-----------------|------
Still my glorious build-up before guitar solo.
    printed from https://www.1christian.net/rwtc
     



    Use this form to add a link or upload a file that will aid others in learning or using this song.
    Add a Link

    ie: https://www.youtube.com/watch?v=LubWDy5p6IQ

    or

    All resources will be reviewed before being added to RWTC.
    X

    Display Settings

    Arial
    Lucida
    Segoe
    Tahoma
    Verdana
    Times
    Mono-Space
    10
    10
    10
    Dark Stage Mode
    1 Col
    2 Col
    3 Col
    Hide Chords
    Hide Lyrics
    Nashville
    Modern
    ChordPro
    Content
    Create Set List
      click to add setlist name
      created on
      used on


        |

        The set list feature is designed for you to be able to create sets of songs.

        1. Click Create Set List
        2. Add a song by click Add To

        1. When on any page with a list of songs, you can drag-n-drop a song into your list.
        2. When on any song page, click the "Add To Set List" button

        1. Share your set list with others
        2. Use it to display songs while practicing/performing
        3. Use to track your sets

        1. Change the order of the songs by simply dragging to the desired location
        2. Change/save the default song key for each song