Add To:

Songbook
|
Set List
Create New

Create
Solid Gold
Luxury

Preview (partial song; no chords displayed)

Title: Solid Gold
Artist: Luxury
Album: Amazing and Thank You
Copyright 1995 Thirsty Moon River Publishing (ACAP)
Tabbed by Iconman (boze@rapidramp.com)
C E2 Am F G
E|-----X------X-----X----1----3----|
B|-----1------1-----1----1----0----|
G|-----0------1-----2----2----0----|
D|-----2------2-----2----3----0----|
A|-----3------2-----0----X----2----|
E|-----X------X-----X----X----3----|
C E2 Am E2
Wedding bells are here again,
C E2 Am E2
and the weight of love to entertain again.
C E2 Am E2
With untouched hands holding gold bands.
C E2 Am E2
Nothing's the way it was yesterday
C E2 Am E2
Nothing's the way it was yesterday



E|--7-8--7-8-10-7-8--10-7-8--|
B|---------------------------|
G|---------------------------|
D|---------------------------|
A|---------------------------|
E|---------------------------|
C E2 Am E2
Lady Luck has her hand stretched out for me
C E2 Am E2
And I take it with uncertainty
C E2 Am E2
Fate has brought us together, says I.
C E2 Am E2
Your place or mine? she replies
C E2 Am E2
So what do you expect from life?
C E2 Am E2
So what do you expect from life?
(A bit distroted)
C Am F G
C Am
Oh, how uneasy lays the head that wears the crown,
F G
wears the crown.
C Am F G
C Am
Oh, how uneasy lays the head that wears the crown.
F G
wears the crown.



/ = bend
> = slide
/
E|-----------------------------5>4-4-7-7-7-8-8-7-7-10-7-8--X---
B|------3--3--------------3-3------------------------------1---
G|--4-5------5--4-5--4-5-----------------------------------0---
D|---------------------------------------------------------2---
A|---------------------------------------------------------3---
E|---------------------------------------------------------X---
|--16----16----16--------16-16-------16-16-16---------
|-----16----16----14-16--------16-14-16-16-16---------
|-----------------------------------------------------
|-----------------------------------------------------
|-----------------------------------------------------
|-----------------------------------------------------
C E2 Am E2
Da-dum da da da da da dum. Da-dum da da da da da dum. (4x)
(Distorted, with a bit more than last time. Very last chord second time is
incredibly clean.)
C E2 Am E2
La da da da da da da da. La da da da da da da da. (2x)
(Wildly distorted)
C Am F G
C Am
Oh, how uneasy lays the head that wears the crown,
F G
wears the crown.
C Am F G
To have and to hold, solid gold.
C Am F G C
To have and to hold, solid gold.
NOTE: Listen to song for rythm on progressions and on solos. I don't
gaurantee this to be perfect. If it IS perfect, I could be sued. Anyway,
print this out in a pixel-wide font (I use Monaco) so you can actually read
the solo parts. And come visit me at "http://www.jesusfreak.com/whirl". I
write album reviews there. Chow.
    printed from https://www.1christian.net/rwtc
     



    Use this form to add a link or upload a file that will aid others in learning or using this song.
    Add a Link

    ie: https://www.youtube.com/watch?v=LubWDy5p6IQ

    or

    All resources will be reviewed before being added to RWTC.
    X

    Display Settings

    Arial
    Lucida
    Segoe
    Tahoma
    Verdana
    Times
    Mono-Space
    10
    10
    10
    Dark Stage Mode
    1 Col
    2 Col
    3 Col
    Hide Chords
    Hide Lyrics
    Nashville
    Modern
    ChordPro
    Content
    Create Set List
      click to add setlist name
      created on
      used on


        |

        The set list feature is designed for you to be able to create sets of songs.

        1. Click Create Set List
        2. Add a song by click Add To

        1. When on any page with a list of songs, you can drag-n-drop a song into your list.
        2. When on any song page, click the "Add To Set List" button

        1. Share your set list with others
        2. Use it to display songs while practicing/performing
        3. Use to track your sets

        1. Change the order of the songs by simply dragging to the desired location
        2. Change/save the default song key for each song