Add To:

Songbook
|
Set List
Create New

Create
You In My Heart
The Dingees

Preview (partial song; no chords displayed)

Song: You in My Heart
Band: The Dingees
Album: Sundown to Midnight
Copyright Thirsty Moon River Publishing Inc. (ASCAP)
Tabbed by Todd Nicholson (crazymescan@hotmail.com)

chords used in this song
e|----0----0----1----3----|
B|----1----0----1----0----|
G|----0----0----2----0----|
D|----2----2----3----0----|
A|----3----2----3----2----|
E|---------0----1----3----|
C Em F G

e|---------------------------------------------------|
B|---------------------------------------------------|
G|---------------------------------------------------|
D|---0-2-2-2-2h3p2---0-2-2-2-2h3p2-------------------|
A|-3---------------3---------------3-2-------3-2-----|
E|-------------------------------------3-3-3-----3-3-|

e|---------------------------------------3-------3-|
B|---------------------------------------0-------0-|
G|---------------------------------------0-------0-|
D|---0-2-2-2-2h3p2---0-2-2-2-2h3p2-------0-------0-|
A|-3---------------3---------------3-2---2-3-2---2-|
E|-------------------------------------3-3-----3-3-|

C
Hard times are callin' for hard hearts
Em
Take me in with the prestige turn me out an upstart
C
While backbiters encamped all around me
Em
What thought split out in their mind that turn us into enemies

(chorus)
F G C
All I got left to hold onto is You in my heart
F G C
All I got left to hold onto is You in my heart
F G
The more I'm left with nothing but You
Em F
The more I see I gotta hold onto
F G C
All I got left to hold onto is You

C Em
They conspire all day they watch my steps
C
But I will not strike my foot upon a stone
Em
I've been lifted high upon a rock

Where out of range of harm I can carry on

(repeat chorus)




e|---------------------------------------3-|
B|---------------------------------------0-|
G|---------------------------------------0-|
D|---0-2-2-2-2h3p2---0-2-2-2-2h3p2-------0-|
A|-3---------------3---------------3-2---2-|
E|-------------------------------------3-3-|
    printed from https://www.1christian.net/rwtc
     



    Use this form to add a link or upload a file that will aid others in learning or using this song.
    Add a Link

    ie: https://www.youtube.com/watch?v=LubWDy5p6IQ

    or

    All resources will be reviewed before being added to RWTC.
    X

    Display Settings

    Arial
    Lucida
    Segoe
    Tahoma
    Verdana
    Times
    Mono-Space
    10
    10
    10
    Dark Stage Mode
    1 Col
    2 Col
    3 Col
    Hide Chords
    Hide Lyrics
    Nashville
    Modern
    ChordPro
    Content
    Create Set List
      click to add setlist name
      created on
      used on


        |

        The set list feature is designed for you to be able to create sets of songs.

        1. Click Create Set List
        2. Add a song by click Add To

        1. When on any page with a list of songs, you can drag-n-drop a song into your list.
        2. When on any song page, click the "Add To Set List" button

        1. Share your set list with others
        2. Use it to display songs while practicing/performing
        3. Use to track your sets

        1. Change the order of the songs by simply dragging to the desired location
        2. Change/save the default song key for each song