Add To:

Songbook
|
Set List
Create New

Create

Preview (partial song; no chords displayed)

Obsession
Deliriou5?
Cutting Edge and Live & IN The Can
Written by Martin Smith
Transcribed by Joel elliott (J_skunk@hotmail.com)
July 27, 1998
jclgreat@juno.com
bass
-------------------------------------------------------------------------
-----
-------------------------------------------------------------------------
-----
--2-2-2-2--0-0-0-0-------------------------------------------------------
-----
--------------------3-3-3-3--0-0-0-0-------------------------------------
-----
guitar
Bm A G Em (triplet)
------------------------------------------0------------------------------
-----
---------3--------3--------3--------3------3-----------------------------
-----
-------0--------0--------0--------0----0----0----------------------------
-----
-----4--------4--------4--------4----------------------------------------
-----
--2--------0-------------------------------------------------------------
-----
--------------------3--------0-------------------------------------------
-----
What can I do with my obsession
With the things I cannot see
Is there madness in my being
Is it wind that blows the trees
Sometimes you're further than the moon
Sometimes you're closer than my skin
And you surround me like a winter fog
You've come and burned me with a kiss
G A D/F#
And my heart burns for you
G A D
And my heart burns for you
And I'm so filthy with my sin
I carry pride like a disease
You know I'm stubborn God and I'm longing to be close
You burn me deeper than I know
I feel lonely without hope
I feel desperate without vision
You wrap around me like a winter coat.
You come and free me like a bird.
(chorus)
The chorus goes on for a long time then G , A, and D/F#
turn into G5, A5, D5 (power chords)
The song goes on for about 8 and a half minutes
Chords:
G 320033
A x02220
D/F# 2x0232
D xx0232
G5 355xxx
A5 577xxx
D5 x577xx
    printed from https://www.1christian.net/rwtc
     



    Use this form to add a link or upload a file that will aid others in learning or using this song.
    Add a Link

    ie: https://www.youtube.com/watch?v=LubWDy5p6IQ

    or

    All resources will be reviewed before being added to RWTC.
    X

    Display Settings

    Arial
    Lucida
    Segoe
    Tahoma
    Verdana
    Times
    Mono-Space
    10
    10
    10
    Dark Stage Mode
    1 Col
    2 Col
    3 Col
    Hide Chords
    Hide Lyrics
    Nashville
    Modern
    ChordPro
    Content
    Create Set List
      click to add setlist name
      created on
      used on


        |

        The set list feature is designed for you to be able to create sets of songs.

        1. Click Create Set List
        2. Add a song by click Add To

        1. When on any page with a list of songs, you can drag-n-drop a song into your list.
        2. When on any song page, click the "Add To Set List" button

        1. Share your set list with others
        2. Use it to display songs while practicing/performing
        3. Use to track your sets

        1. Change the order of the songs by simply dragging to the desired location
        2. Change/save the default song key for each song