Add To:

Songbook
|
Set List
Create New

Create
Mezzamorphis
Heaven Is My Home
Delirious
Mezzamorphis

Preview (partial song; no chords displayed)

Song: Heaven is my Home
Artist: Deliriou5
Album: Mezzamorphisis
---------------------------------------------------------------------------------
---------------------------------------------------------------------------------
---------------------------------------------------------------------------------
2---2---2------------2---2---2------------2---2---2-----------2---2---2--
2---2---2------------2---2---2------------2---2---2-----------2---2---2--
0---0---0------------0---0---0------------0---0---0-----------0---0---0--
---------------------------------------------------------------------------------
---------------------------------------------------------------------------------
---------------------------------------------------------------------------------
2---2---2-xxxxxx-2---2---2-xxxxxx-2---2---2-xxxxxx-2---2---2
2---2---2-xxxxxx-2---2---2-xxxxxx-2---2---2-xxxxxx-2---2---2
0---0---0-xxxxxx-0---0---0-xxxxxx-0---0---0-xxxxxx-0---0---0
Pre chorus:
"And the Ancient Stone knows a deeper tail about a
--------------------------------------------------------------------------------
--------------------------------------------------------------------------------
5------------------------- "C"-----------------------------------------------
5-----------------------------------------------------------------------------
3-----------------------------------------------------------------------------
----------------------------------------------------------------------------
bloody game they call the holy war"
-----------------------------------------------------
------------------------------------------------------
6----------------------------------------------------
6----------------------------------------------------
4---------------------------------------------------
-----------------------------------------------------
guitar fill/run thingy?:
------10----------------5---------------3-
---8-----------------3---------------1---
9-----------------4---------------2-----



Em-F#m-G
He-----a----ven is my
Em-F#m-G C D E
Ho----o----me, and there'll be------eee no shame today.
Everything is the same until the music jam thing after the 2nd chorus...it goes like this:
(slide= / )
(in powerchords)
E A G/A/G/A/G E C D (repeats)
now it is vocal only and then it picks up on C in the middle of the chorus...thats about all there is to it. it is really fun to play and it is really anointed too. God bless
    printed from https://www.1christian.net/rwtc
     



    Use this form to add a link or upload a file that will aid others in learning or using this song.
    Add a Link

    ie: https://www.youtube.com/watch?v=LubWDy5p6IQ

    or

    All resources will be reviewed before being added to RWTC.
    X

    Display Settings

    Arial
    Lucida
    Segoe
    Tahoma
    Verdana
    Times
    Mono-Space
    10
    10
    10
    Dark Stage Mode
    1 Col
    2 Col
    3 Col
    Hide Chords
    Hide Lyrics
    Nashville
    Modern
    ChordPro
    Content
    Create Set List
      click to add setlist name
      created on
      used on


        |

        The set list feature is designed for you to be able to create sets of songs.

        1. Click Create Set List
        2. Add a song by click Add To

        1. When on any page with a list of songs, you can drag-n-drop a song into your list.
        2. When on any song page, click the "Add To Set List" button

        1. Share your set list with others
        2. Use it to display songs while practicing/performing
        3. Use to track your sets

        1. Change the order of the songs by simply dragging to the desired location
        2. Change/save the default song key for each song