Add To:

Songbook
|
Set List
Create New

Create
Cutting Edge
All I Want Is You
Delirious
Cutting Edge

Preview (partial song; no chords displayed)

All I Want Is You
Delirious?
Words and Music by Martin Smith
Transcribed by Joel Elliott (J_skunk@hotmail.com)
July 26, 1998
Additions and fingering corrections by Jed Carson
jclgreat@juno.com
November 22, 1998
palm mute throughout
------------------------------------------------------------------------------
------------------------------------------------------------------------------
------------------------------------------------------------------------------
------------------------------------------------------------------------------
--7-7-7-7-7-7-7-7--5-5-5-5-5-5-5-5--3-3-3-3-3-3-3-3--5-5-5-5-5-5-5-5----------
------------------------------------------------------------------------------
------------------------------------------------------------------------------
------------------------------------------------------------------------------
------0----0-----------0----0-----------0----0-----------0----0---------------
----0----0---0-------0----0---0-------0----0---0-------0----0---0-------------
--7----------------5----------------3----------------5------------------------
------------------------------------------------------------------------------
Did I tell you it was wine, when really it was water.
I walked upon the wine, it went to my head and I faltered
I've tried to heal your bones
I've tried to tell your future
G D
Maybe I should just call up my friends
C2
Play some music, be myself



G Em C G Em C
G
Well I've been thinking about
what I do, I say
C2
to climb my way down this ladder
Keep me from flying away
G
And if there's a preacher here
will you preach the truth
Em C
I want to know more about Jesus



G Em
All I want is you (All I want is you)
C2
All I want is you now. (2x)

    printed from https://www.1christian.net/rwtc
     



    Use this form to add a link or upload a file that will aid others in learning or using this song.
    Add a Link

    ie: https://www.youtube.com/watch?v=LubWDy5p6IQ

    or

    All resources will be reviewed before being added to RWTC.
    X

    Display Settings

    Arial
    Lucida
    Segoe
    Tahoma
    Verdana
    Times
    Mono-Space
    10
    10
    10
    Dark Stage Mode
    1 Col
    2 Col
    3 Col
    Hide Chords
    Hide Lyrics
    Nashville
    Modern
    ChordPro
    Content
    Create Set List
      click to add setlist name
      created on
      used on


        |

        The set list feature is designed for you to be able to create sets of songs.

        1. Click Create Set List
        2. Add a song by click Add To

        1. When on any page with a list of songs, you can drag-n-drop a song into your list.
        2. When on any song page, click the "Add To Set List" button

        1. Share your set list with others
        2. Use it to display songs while practicing/performing
        3. Use to track your sets

        1. Change the order of the songs by simply dragging to the desired location
        2. Change/save the default song key for each song