Add To:

Songbook
|
Set List
Create New

Create
Casting Crowns
American Dream
Casting Crowns
Casting Crowns

Preview (partial song; no chords displayed)

Transcribed by Robert Evans
This song can be played in standard tuning or in drop D. This transcription is
done using standard tuning and in drop D. The drop D transcription is below each
part and is marked with a plus sign '+' at the beginning of the section.
Guitar I part ***
4/4
Guitar I 4x
|------------------------------------------||------|
|-----------------------------------------o||------|
|-7-7-7-7s9-9s11-11-11-11-11-11-11b12r11---||------|
|-0-0-0-0-0-0--0--0--0--0--0--0--0----(0)--||------|
|-----------------------------------------o||------|
|------------------------------------------||------|
Guitar II
|-------------------------------------------|------|
|-------------------------------------------|------|
|-------------------------------------------|-7----|
|-------------------------------------------|-7----|
|-------------------------------------------|-5----|
|-------------------------------------------|-5----|
+
+Guitar I - No change
+
+Guitar II
+|-------------------------------------------|------|
+|-------------------------------------------|-3----|
+|-------------------------------------------|-2----|
+|-------------------------------------------|-0----|
+|-------------------------------------------|-0----|
+|-------------------------------------------|-0----|
variances.
* Bridge to chorus
PM|
|--------------------------------|----------------|----|
|--------------------------------|----------------|----|
|-------------------7-7-7--------|----------------|----|
|-2----2-2-2--4--5--7-7-7--------|-2----2-2-2--4--|-5--|
|-2----2-2-2--4--5--5-5-5--------|-2----2-2-2--4--|-5--|
|-0----0-0-0--2--3--5-5-5--------|-0----0-0-0--2--|-3--|
+* Bridge to chorus in Drop d
+ PM|
+|--------------------------------|----------------|----|
+|-------------------3-3-3--------|----------------|----|
+|-------------------2-2-2--------|----------------|----|
+|-2----2-2-2--4--5--0-0-0--------|-2----2-2-2--4--|-5--|
+|-2----2-2-2--4--5--0-0-0--------|-2----2-2-2--4--|-5--|
+|-2----2-2-2--4--5--0-0-0--------|-2----2-2-2--4--|-5--|
* Chorus Part I
|-------------------||
|------------------o||
|-7-7-------4-4-----||
|-7-7--5-5--4-4--5--||
|-5-5--5-5--2-2--5-o||
|-5-5--3-3-------3--||
+* Chorus Part I in drop D
+|-------------------||
+|-3-3--------------o||
+|-2-2-------4-4-----||
+|-0-0--5-5--4-4--5--||
+|-0-0--5-5--2-2--5-o||
+|-0-0--5-5-------5--||
* Chorus Part II
|--------------------------|---------------------------------------|
|--------------------------|---------------------------------------|
|-4--4--4-4-7-7-7-7-7-7-12-|12-12-12-12-12-12-12-12-12-12-12-12----|
|-4--4--4-4s7-7-7-7-7-7-12-|12-12-12-12-12-12-12-12-12-------------|
|-2--2--2-2-5-5-5-5-5-5s10-|10-10-10-10-10--9s10-10-10-10-10-10----|
|------------------------------------------------------------------|
+* Chorus Part II in Drop D - No change
* Chorus Part III
PM|
|--------------------------|----------------------------------|
|--------------------------|----------------------------------|
|-4--4--4-4-7-7-7-7-7-7-12-|-12-12-12-12-12-12-12-12-7-7-7----|
|-4--4--4-4s7-7-7-7-7-7-12-|-12-12-12-12-12-12-12-12-7-7-7----|
|-2--2--2-2-5-5-5-5-5-5s10-|-10-10-10-10-10-10-10-10-5-5-5----|
|-----------------------10-|-10-10-10-10-10-10-10-10-5-5-5----|
+* Chorus Part III in Drop D
+ PM|
+|--------------------------|----------------------------------|
+|--------------------------|-------------------------3-3-3----|
+|-4--4--4-4-7-7-7-7-7-7----|-------------------------2-2-2----|
+|-4--4--4-4s7-7-7-7-7-7-12-|-12-12-12-12-12-12-12-12-0-0-0----|
+|-2--2--2-2-5-5-5-5-5-5s10-|-10-10-10-10-10-10-10-10-0-0-0----|
+|-----------------------12-|-12-12-12-12-12-12-12-12-0-0-0----|
* Ending
PM PM| PM|
|------------------------------------------------||
|------------------------------------------------||
|-7--7--7-7----------------4--4--4-4-2-2--2------||
|-7--7--7-7---5-5--5-------4--4--4-4-2-2--2------||
|-5--5--5-5-x-5-5--5-x-x---2--2--2-2-0-0--0--x-x-||
|-5--5--5-5-x-3-3--3-x-x---------------------x-x-||
+* Ending in Drop D
+ PM PM| PM|
+|------------------------------------------------||
+|-3--3--3-3--------------------------------------||
+|-2--2--2-2----------------4--4--4-4-2-2--2------||
+|-0--0--0-0---5-5--5-------4--4--4-4-2-2--2------||
+|-0--0--0-0-0-5-5--5-0-0---2--2--2-2-0-0--0--0-0-||
+|-0--0--0-0-0-5-5--5-0-0---------------------0-0-||
Thats about it, there are some embellishments throughout, but are easier to
figure out than to transcribe ;)
Have Fun, hope this helps!
Any comments or suggestions? Send them to robert@unevolved.org
Tablature Legend
----------------
s - legato slide
Misc Legend
-----------
| - bar
|| - double bar
||o - repeat start
o|| - repeat end
  • ©SWECS Music / Club Zoo Music
  • Hector Cervantes & Mark Hall
  • 4196558
printed from https://www.1christian.net/rwtc
 



Use this form to add a link or upload a file that will aid others in learning or using this song.
Add a Link

ie: https://www.youtube.com/watch?v=LubWDy5p6IQ

or

All resources will be reviewed before being added to RWTC.
X

Display Settings

Arial
Lucida
Segoe
Tahoma
Verdana
Times
Mono-Space
10
10
10
Dark Stage Mode
1 Col
2 Col
3 Col
Hide Chords
Hide Lyrics
Nashville
Modern
ChordPro
Content
Create Set List
    click to add setlist name
    created on
    used on


      |

      The set list feature is designed for you to be able to create sets of songs.

      1. Click Create Set List
      2. Add a song by click Add To

      1. When on any page with a list of songs, you can drag-n-drop a song into your list.
      2. When on any song page, click the "Add To Set List" button

      1. Share your set list with others
      2. Use it to display songs while practicing/performing
      3. Use to track your sets

      1. Change the order of the songs by simply dragging to the desired location
      2. Change/save the default song key for each song